ISO-10303-21;
HEADER;
FILE_DESCRIPTION (( 'STEP AP203' ),
    '1' );
FILE_NAME ('Q-QZWP-R4-10-266-M.STEP',
    '2020-12-23T01:21:40',
    ( '' ),
    ( '' ),
    'SwSTEP 2.0',
    'SolidWorks 2020',
    '' );
FILE_SCHEMA (( 'CONFIG_CONTROL_DESIGN' ));
ENDSEC;

DATA;
#1 = CIRCLE ( 'NONE', #14, 5.000000000000000888 ) ;
#2 = DIRECTION ( 'NONE',  ( 1.000000000000000000, 0.000000000000000000, 0.000000000000000000 ) ) ;
#3 = DIRECTION ( 'NONE',  ( -1.000000000000000000, -0.000000000000000000, -0.000000000000000000 ) ) ;
#4 = PLANE ( 'NONE',  #107 ) ;
#5 = AXIS2_PLACEMENT_3D ( 'NONE', #243, #274, #326 ) ;
#6 = LINE ( 'NONE', #82, #167 ) ;
#7 = LINE ( 'NONE', #266, #228 ) ;
#8 = ADVANCED_FACE ( 'NONE', ( #51 ), #178, .F. ) ;
#9 = AXIS2_PLACEMENT_3D ( 'NONE', #265, #3, #239 ) ;
#10 = APPLICATION_PROTOCOL_DEFINITION ( 'international standard', 'config_control_design', 1994, #311 ) ;
#11 = LINE ( 'NONE', #95, #175 ) ;
#12 = ADVANCED_FACE ( 'NONE', ( #231 ), #23, .T. ) ;
#13 = DIRECTION ( 'NONE',  ( -1.000000000000000000, -0.000000000000000000, -0.000000000000000000 ) ) ;
#14 = AXIS2_PLACEMENT_3D ( 'NONE', #142, #2, #185 ) ;
#15 = PERSON_AND_ORGANIZATION_ROLE ( 'design_supplier' ) ;
#16 = ORIENTED_EDGE ( 'NONE', *, *, #283, .F. ) ;
#17 = DATE_AND_TIME ( #309, #308 ) ;
#18 = VERTEX_POINT ( 'NONE', #302 ) ;
#19 = AXIS2_PLACEMENT_3D ( 'NONE', #42, #63, #225 ) ;
#20 = COORDINATED_UNIVERSAL_TIME_OFFSET ( 8, 0, .AHEAD. ) ;
#21 = PLANE ( 'NONE',  #328 ) ;
#22 = PERSON_AND_ORGANIZATION_ROLE ( 'classification_officer' ) ;
#23 = CYLINDRICAL_SURFACE ( 'NONE', #144, 12.69999999999999929 ) ;
#24 = ORIENTED_EDGE ( 'NONE', *, *, #108, .F. ) ;
#25 = ORIENTED_EDGE ( 'NONE', *, *, #179, .F. ) ;
#26 = ORIENTED_EDGE ( 'NONE', *, *, #99, .T. ) ;
#27 =( GEOMETRIC_REPRESENTATION_CONTEXT ( 3 ) GLOBAL_UNCERTAINTY_ASSIGNED_CONTEXT ( ( #92 ) ) GLOBAL_UNIT_ASSIGNED_CONTEXT ( ( #197, #194, #296 ) ) REPRESENTATION_CONTEXT ( 'NONE', 'WORKASPACE' ) );
#28 = FACE_OUTER_BOUND ( 'NONE', #335, .T. ) ;
#29 = CARTESIAN_POINT ( 'NONE',  ( -1.614212418857619014, 0.000000000000000000, 5.000000000000000888 ) ) ;
#30 = PRODUCT_DEFINITION ( 'UNKNOWN', '', #217, #307 ) ;
#31 = CARTESIAN_POINT ( 'NONE',  ( 3.000000000000000000, 0.000000000000000000, 0.000000000000000000 ) ) ;
#32 = AXIS2_PLACEMENT_3D ( 'NONE', #190, #292, #318 ) ;
#33 = CARTESIAN_POINT ( 'NONE',  ( -1.614212418857619014, 0.000000000000000000, 0.000000000000000000 ) ) ;
#34 = ADVANCED_FACE ( 'NONE', ( #207 ), #21, .F. ) ;
#35 = CARTESIAN_POINT ( 'NONE',  ( 1.250000000000000444, 6.123233995736766282E-16, -5.000000000000000000 ) ) ;
#36 = DIRECTION ( 'NONE',  ( -1.000000000000000000, -0.000000000000000000, -0.000000000000000000 ) ) ;
#37 = EDGE_CURVE ( 'NONE', #151, #131, #301, .T. ) ;
#38 = AXIS2_PLACEMENT_3D ( 'NONE', #139, #218, #56 ) ;
#39 = CARTESIAN_POINT ( 'NONE',  ( 0.000000000000000000, 0.000000000000000000, 0.000000000000000000 ) ) ;
#40 = CARTESIAN_POINT ( 'NONE',  ( -3.000000000000000000, 0.000000000000000000, 0.000000000000000000 ) ) ;
#41 = FACE_BOUND ( 'NONE', #81, .T. ) ;
#42 = CARTESIAN_POINT ( 'NONE',  ( -1.614212418857619014, 0.000000000000000000, 0.000000000000000000 ) ) ;
#43 = CC_DESIGN_APPROVAL ( #215, ( #30 ) ) ;
#44 = EDGE_CURVE ( 'NONE', #151, #106, #72, .T. ) ;
#45 = EDGE_LOOP ( 'NONE', ( #159, #176 ) ) ;
#46 = ORIENTED_EDGE ( 'NONE', *, *, #137, .F. ) ;
#47 = DATE_AND_TIME ( #232, #172 ) ;
#48 = DIRECTION ( 'NONE',  ( 0.000000000000000000, 0.000000000000000000, 1.000000000000000000 ) ) ;
#49 = DATE_AND_TIME ( #75, #88 ) ;
#50 = VERTEX_POINT ( 'NONE', #267 ) ;
#51 = FACE_OUTER_BOUND ( 'NONE', #71, .T. ) ;
#52 = EDGE_LOOP ( 'NONE', ( #254, #79, #158, #24 ) ) ;
#53 = FACE_OUTER_BOUND ( 'NONE', #45, .T. ) ;
#54 = CIRCLE ( 'NONE', #322, 12.69999999999999929 ) ;
#55 = DIRECTION ( 'NONE',  ( 0.000000000000000000, 0.000000000000000000, -1.000000000000000000 ) ) ;
#56 = DIRECTION ( 'NONE',  ( 0.000000000000000000, 0.000000000000000000, 1.000000000000000000 ) ) ;
#57 = DIRECTION ( 'NONE',  ( -1.000000000000000000, -0.000000000000000000, -0.000000000000000000 ) ) ;
#58 = AXIS2_PLACEMENT_3D ( 'NONE', #40, #193, #67 ) ;
#59 = LOCAL_TIME ( 9, 21, 40.00000000000000000, #199 ) ;
#60 = DIRECTION ( 'NONE',  ( -1.000000000000000000, -0.000000000000000000, -0.000000000000000000 ) ) ;
#61 = DIRECTION ( 'NONE',  ( 1.000000000000000000, 0.000000000000000000, 0.000000000000000000 ) ) ;
#62 = AXIS2_PLACEMENT_3D ( 'NONE', #246, #36, #323 ) ;
#63 = DIRECTION ( 'NONE',  ( -1.000000000000000000, -0.000000000000000000, -0.000000000000000000 ) ) ;
#64 = APPROVAL ( #298, 'UNSPECIFIED' ) ;
#65 = APPLICATION_PROTOCOL_DEFINITION ( 'international standard', 'config_control_design', 1994, #209 ) ;
#66 = EDGE_CURVE ( 'NONE', #133, #304, #241, .T. ) ;
#67 = DIRECTION ( 'NONE',  ( 0.000000000000000000, 0.000000000000000000, 1.000000000000000000 ) ) ;
#68 = VERTEX_POINT ( 'NONE', #240 ) ;
#69 = SHAPE_DEFINITION_REPRESENTATION ( #260, #110 ) ;
#70 = CIRCLE ( 'NONE', #62, 5.000000000000000000 ) ;
#71 = EDGE_LOOP ( 'NONE', ( #16, #211, #188, #26 ) ) ;
#72 = LINE ( 'NONE', #282, #93 ) ;
#73 = PRODUCT_RELATED_PRODUCT_CATEGORY ( 'detail', '', ( #299 ) ) ;
#74 = EDGE_CURVE ( 'NONE', #160, #213, #317, .T. ) ;
#75 = CALENDAR_DATE ( 2020, 23, 12 ) ;
#76 = DIRECTION ( 'NONE',  ( -1.000000000000000000, -0.000000000000000000, -0.000000000000000000 ) ) ;
#77 = DATE_AND_TIME ( #249, #295 ) ;
#78 = DIRECTION ( 'NONE',  ( 0.000000000000000000, 0.000000000000000000, 1.000000000000000000 ) ) ;
#79 = ORIENTED_EDGE ( 'NONE', *, *, #66, .T. ) ;
#80 = FACE_OUTER_BOUND ( 'NONE', #52, .T. ) ;
#81 = EDGE_LOOP ( 'NONE', ( #279, #280 ) ) ;
#82 = CARTESIAN_POINT ( 'NONE',  ( -1.614212418857619014, 0.000000000000000000, 5.000000000000000888 ) ) ;
#83 = ORIENTED_EDGE ( 'NONE', *, *, #196, .F. ) ;
#84 = CIRCLE ( 'NONE', #201, 5.000000000000000888 ) ;
#85 = CARTESIAN_POINT ( 'NONE',  ( -1.250000000000000222, 0.000000000000000000, 0.000000000000000000 ) ) ;
#86 = CARTESIAN_POINT ( 'NONE',  ( 1.250000000000000222, 5.000000000000000000, 0.000000000000000000 ) ) ;
#87 = CARTESIAN_POINT ( 'NONE',  ( -3.000000000000000000, 0.000000000000000000, 0.000000000000000000 ) ) ;
#88 = LOCAL_TIME ( 9, 21, 40.00000000000000000, #20 ) ;
#89 = PERSON_AND_ORGANIZATION ( #149, #147 ) ;
#90 = DIRECTION ( 'NONE',  ( -1.000000000000000000, -0.000000000000000000, -0.000000000000000000 ) ) ;
#91 = DIRECTION ( 'NONE',  ( 0.000000000000000000, 0.000000000000000000, 1.000000000000000000 ) ) ;
#92 = UNCERTAINTY_MEASURE_WITH_UNIT (LENGTH_MEASURE( 1.000000000000000082E-05 ), #197, 'distance_accuracy_value', 'NONE');
#93 = VECTOR ( 'NONE', #153, 1000.000000000000000 ) ;
#94 = AXIS2_PLACEMENT_3D ( 'NONE', #86, #109, #287 ) ;
#95 = CARTESIAN_POINT ( 'NONE',  ( -1.614212418857619014, 6.123233995736767268E-16, -5.000000000000000888 ) ) ;
#96 = CYLINDRICAL_SURFACE ( 'NONE', #187, 5.000000000000000888 ) ;
#97 = DIRECTION ( 'NONE',  ( 0.000000000000000000, 0.000000000000000000, -1.000000000000000000 ) ) ;
#98 = COORDINATED_UNIVERSAL_TIME_OFFSET ( 8, 0, .AHEAD. ) ;
#99 = EDGE_CURVE ( 'NONE', #213, #160, #140, .T. ) ;
#100 = CARTESIAN_POINT ( 'NONE',  ( -1.250000000000000222, 5.000000000000000000, 0.000000000000000000 ) ) ;
#101 = PERSON_AND_ORGANIZATION_ROLE ( 'creator' ) ;
#102 = ORIENTED_EDGE ( 'NONE', *, *, #122, .F. ) ;
#103 = DATE_TIME_ROLE ( 'creation_date' ) ;
#104 = EDGE_LOOP ( 'NONE', ( #333, #200, #313, #300 ) ) ;
#105 = COORDINATED_UNIVERSAL_TIME_OFFSET ( 8, 0, .AHEAD. ) ;
#106 = VERTEX_POINT ( 'NONE', #35 ) ;
#107 = AXIS2_PLACEMENT_3D ( 'NONE', #161, #238, #55 ) ;
#108 = EDGE_CURVE ( 'NONE', #68, #214, #268, .T. ) ;
#109 = DIRECTION ( 'NONE',  ( -1.000000000000000000, 0.000000000000000000, -0.000000000000000000 ) ) ;
#110 = ADVANCED_BREP_SHAPE_REPRESENTATION ( 'Q-QZWP-R4-10-266-M', ( #171, #128 ), #27 ) ;
#111 = CYLINDRICAL_SURFACE ( 'NONE', #208, 5.000000000000000888 ) ;
#112 = EDGE_LOOP ( 'NONE', ( #157, #306 ) ) ;
#113 = CC_DESIGN_PERSON_AND_ORGANIZATION_ASSIGNMENT ( #204, #22, ( #286 ) ) ;
#114 = CARTESIAN_POINT ( 'NONE',  ( -3.000000000000000000, 0.000000000000000000, 5.000000000000000000 ) ) ;
#115 = EDGE_CURVE ( 'NONE', #131, #151, #264, .T. ) ;
#116 = AXIS2_PLACEMENT_3D ( 'NONE', #203, #76, #48 ) ;
#117 = CC_DESIGN_APPROVAL ( #195, ( #286 ) ) ;
#118 = DIRECTION ( 'NONE',  ( 0.000000000000000000, 0.000000000000000000, 1.000000000000000000 ) ) ;
#119 = CARTESIAN_POINT ( 'NONE',  ( -3.000000000000000000, 0.000000000000000000, 0.000000000000000000 ) ) ;
#120 = CARTESIAN_POINT ( 'NONE',  ( 3.000000000000000000, 0.000000000000000000, 0.000000000000000000 ) ) ;
#121 = PLANE ( 'NONE',  #5 ) ;
#122 = EDGE_CURVE ( 'NONE', #18, #106, #182, .T. ) ;
#123 = CLOSED_SHELL ( 'NONE', ( #12, #156, #289, #130, #230, #8, #189, #163, #252, #34 ) ) ;
#124 = DATE_TIME_ROLE ( 'classification_date' ) ;
#125 = PERSON_AND_ORGANIZATION ( #149, #147 ) ;
#126 = EDGE_LOOP ( 'NONE', ( #263, #148, #262, #46 ) ) ;
#127 = CALENDAR_DATE ( 2020, 23, 12 ) ;
#128 = AXIS2_PLACEMENT_3D ( 'NONE', #39, #91, #61 ) ;
#129 = DIRECTION ( 'NONE',  ( -1.000000000000000000, -0.000000000000000000, -0.000000000000000000 ) ) ;
#130 = ADVANCED_FACE ( 'NONE', ( #165 ), #141, .F. ) ;
#131 = VERTEX_POINT ( 'NONE', #212 ) ;
#132 = DATE_AND_TIME ( #127, #59 ) ;
#133 = VERTEX_POINT ( 'NONE', #168 ) ;
#134 = ORIENTED_EDGE ( 'NONE', *, *, #137, .T. ) ;
#135 = CIRCLE ( 'NONE', #58, 12.69999999999999929 ) ;
#136 = DIRECTION ( 'NONE',  ( -1.000000000000000000, -0.000000000000000000, -0.000000000000000000 ) ) ;
#137 = EDGE_CURVE ( 'NONE', #131, #18, #6, .T. ) ;
#138 = DIRECTION ( 'NONE',  ( -1.000000000000000000, -0.000000000000000000, -0.000000000000000000 ) ) ;
#139 = CARTESIAN_POINT ( 'NONE',  ( -3.000000000000000000, 0.000000000000000000, 0.000000000000000000 ) ) ;
#140 = CIRCLE ( 'NONE', #281, 5.000000000000000000 ) ;
#141 = PLANE ( 'NONE',  #94 ) ;
#142 = CARTESIAN_POINT ( 'NONE',  ( -1.250000000000000222, 0.000000000000000000, 0.000000000000000000 ) ) ;
#143 = FACE_OUTER_BOUND ( 'NONE', #261, .T. ) ;
#144 = AXIS2_PLACEMENT_3D ( 'NONE', #331, #310, #233 ) ;
#145 = DIRECTION ( 'NONE',  ( 0.000000000000000000, 0.000000000000000000, 1.000000000000000000 ) ) ;
#146 = DIRECTION ( 'NONE',  ( -1.000000000000000000, -0.000000000000000000, -0.000000000000000000 ) ) ;
#147 = ORGANIZATION ( 'UNSPECIFIED', 'UNSPECIFIED', '' ) ;
#148 = ORIENTED_EDGE ( 'NONE', *, *, #44, .T. ) ;
#149 = PERSON ( 'UNSPECIFIED', 'UNSPECIFIED', 'UNSPECIFIED', ('UNSPECIFIED'), ('UNSPECIFIED'), ('UNSPECIFIED') ) ;
#150 = PERSON_AND_ORGANIZATION ( #149, #147 ) ;
#151 = VERTEX_POINT ( 'NONE', #270 ) ;
#152 = APPROVAL_PERSON_ORGANIZATION ( #330, #64, #226 ) ;
#153 = DIRECTION ( 'NONE',  ( -1.000000000000000000, -0.000000000000000000, -0.000000000000000000 ) ) ;
#154 = CC_DESIGN_PERSON_AND_ORGANIZATION_ASSIGNMENT ( #305, #15, ( #217 ) ) ;
#155 = SECURITY_CLASSIFICATION_LEVEL ( 'unclassified' ) ;
#156 = ADVANCED_FACE ( 'NONE', ( #28 ), #111, .F. ) ;
#157 = ORIENTED_EDGE ( 'NONE', *, *, #99, .F. ) ;
#158 = ORIENTED_EDGE ( 'NONE', *, *, #169, .T. ) ;
#159 = ORIENTED_EDGE ( 'NONE', *, *, #329, .T. ) ;
#160 = VERTEX_POINT ( 'NONE', #312 ) ;
#161 = CARTESIAN_POINT ( 'NONE',  ( -3.000000000000000000, 5.000000000000000000, 0.000000000000000000 ) ) ;
#162 = AXIS2_PLACEMENT_3D ( 'NONE', #33, #186, #242 ) ;
#163 = ADVANCED_FACE ( 'NONE', ( #80 ), #314, .T. ) ;
#164 = LINE ( 'NONE', #29, #248 ) ;
#165 = FACE_OUTER_BOUND ( 'NONE', #316, .T. ) ;
#166 = CARTESIAN_POINT ( 'NONE',  ( -1.614212418857619014, 0.000000000000000000, 0.000000000000000000 ) ) ;
#167 = VECTOR ( 'NONE', #57, 1000.000000000000000 ) ;
#168 = CARTESIAN_POINT ( 'NONE',  ( 3.000000000000000000, 1.555301434917138433E-15, -12.69999999999999929 ) ) ;
#169 = EDGE_CURVE ( 'NONE', #304, #214, #7, .T. ) ;
#170 = CYLINDRICAL_SURFACE ( 'NONE', #19, 5.000000000000000888 ) ;
#171 = MANIFOLD_SOLID_BREP ( 'Ðý×', #123 ) ;
#172 = LOCAL_TIME ( 9, 21, 40.00000000000000000, #177 ) ;
#173 = FACE_OUTER_BOUND ( 'NONE', #257, .T. ) ;
#174 = MECHANICAL_CONTEXT ( 'NONE', #209, 'mechanical' ) ;
#175 = VECTOR ( 'NONE', #244, 1000.000000000000000 ) ;
#176 = ORIENTED_EDGE ( 'NONE', *, *, #108, .T. ) ;
#177 = COORDINATED_UNIVERSAL_TIME_OFFSET ( 8, 0, .AHEAD. ) ;
#178 = CYLINDRICAL_SURFACE ( 'NONE', #255, 5.000000000000000888 ) ;
#179 = EDGE_CURVE ( 'NONE', #50, #327, #1, .T. ) ;
#180 = ORIENTED_EDGE ( 'NONE', *, *, #74, .T. ) ;
#181 = EDGE_LOOP ( 'NONE', ( #25, #250 ) ) ;
#182 = CIRCLE ( 'NONE', #32, 5.000000000000000000 ) ;
#183 = ORIENTED_EDGE ( 'NONE', *, *, #122, .T. ) ;
#184 = ORIENTED_EDGE ( 'NONE', *, *, #66, .F. ) ;
#185 = DIRECTION ( 'NONE',  ( 0.000000000000000000, 0.000000000000000000, -1.000000000000000000 ) ) ;
#186 = DIRECTION ( 'NONE',  ( -1.000000000000000000, -0.000000000000000000, -0.000000000000000000 ) ) ;
#187 = AXIS2_PLACEMENT_3D ( 'NONE', #223, #13, #145 ) ;
#188 = ORIENTED_EDGE ( 'NONE', *, *, #196, .T. ) ;
#189 = ADVANCED_FACE ( 'NONE', ( #285, #53 ), #4, .F. ) ;
#190 = CARTESIAN_POINT ( 'NONE',  ( 1.250000000000000444, 0.000000000000000000, 0.000000000000000000 ) ) ;
#191 = DIRECTION ( 'NONE',  ( 0.000000000000000000, 0.000000000000000000, 1.000000000000000000 ) ) ;
#192 = AXIS2_PLACEMENT_3D ( 'NONE', #31, #220, #118 ) ;
#193 = DIRECTION ( 'NONE',  ( -1.000000000000000000, -0.000000000000000000, -0.000000000000000000 ) ) ;
#194 =( NAMED_UNIT ( * ) PLANE_ANGLE_UNIT ( ) SI_UNIT ( $, .RADIAN. ) );
#195 = APPROVAL ( #278, 'UNSPECIFIED' ) ;
#196 = EDGE_CURVE ( 'NONE', #50, #213, #164, .T. ) ;
#197 =( LENGTH_UNIT ( ) NAMED_UNIT ( * ) SI_UNIT ( .MILLI., .METRE. ) );
#198 = CARTESIAN_POINT ( 'NONE',  ( -1.250000000000000222, 6.123233995736767268E-16, -5.000000000000000888 ) ) ;
#199 = COORDINATED_UNIVERSAL_TIME_OFFSET ( 8, 0, .AHEAD. ) ;
#200 = ORIENTED_EDGE ( 'NONE', *, *, #320, .T. ) ;
#201 = AXIS2_PLACEMENT_3D ( 'NONE', #85, #290, #275 ) ;
#202 = CC_DESIGN_SECURITY_CLASSIFICATION ( #286, ( #217 ) ) ;
#203 = CARTESIAN_POINT ( 'NONE',  ( 3.000000000000000000, 0.000000000000000000, 0.000000000000000000 ) ) ;
#204 = PERSON_AND_ORGANIZATION ( #149, #147 ) ;
#205 = ORIENTED_EDGE ( 'NONE', *, *, #315, .F. ) ;
#206 = APPROVAL_DATE_TIME ( #77, #64 ) ;
#207 = FACE_OUTER_BOUND ( 'NONE', #181, .T. ) ;
#208 = AXIS2_PLACEMENT_3D ( 'NONE', #166, #136, #269 ) ;
#209 = APPLICATION_CONTEXT ( 'configuration controlled 3d designs of mechanical parts and assemblies' ) ;
#210 = PERSON_AND_ORGANIZATION ( #149, #147 ) ;
#211 = ORIENTED_EDGE ( 'NONE', *, *, #219, .T. ) ;
#212 = CARTESIAN_POINT ( 'NONE',  ( 3.000000000000000000, 0.000000000000000000, 5.000000000000001776 ) ) ;
#213 = VERTEX_POINT ( 'NONE', #114 ) ;
#214 = VERTEX_POINT ( 'NONE', #216 ) ;
#215 = APPROVAL ( #334, 'UNSPECIFIED' ) ;
#216 = CARTESIAN_POINT ( 'NONE',  ( -3.000000000000000000, 0.000000000000000000, 12.69999999999999929 ) ) ;
#217 = PRODUCT_DEFINITION_FORMATION_WITH_SPECIFIED_SOURCE ( 'ANY', '', #299, .NOT_KNOWN. ) ;
#218 = DIRECTION ( 'NONE',  ( -1.000000000000000000, -0.000000000000000000, -0.000000000000000000 ) ) ;
#219 = EDGE_CURVE ( 'NONE', #327, #50, #84, .T. ) ;
#220 = DIRECTION ( 'NONE',  ( -1.000000000000000000, -0.000000000000000000, -0.000000000000000000 ) ) ;
#221 = APPROVAL_PERSON_ORGANIZATION ( #332, #215, #256 ) ;
#222 = EDGE_CURVE ( 'NONE', #106, #18, #70, .T. ) ;
#223 = CARTESIAN_POINT ( 'NONE',  ( -1.614212418857619014, 0.000000000000000000, 0.000000000000000000 ) ) ;
#224 = CARTESIAN_POINT ( 'NONE',  ( 3.000000000000000000, 0.000000000000000000, 12.69999999999999929 ) ) ;
#225 = DIRECTION ( 'NONE',  ( 0.000000000000000000, 0.000000000000000000, 1.000000000000000000 ) ) ;
#226 = APPROVAL_ROLE ( '' ) ;
#227 = ORIENTED_EDGE ( 'NONE', *, *, #283, .T. ) ;
#228 = VECTOR ( 'NONE', #321, 1000.000000000000000 ) ;
#229 = APPROVAL_DATE_TIME ( #17, #195 ) ;
#230 = ADVANCED_FACE ( 'NONE', ( #173 ), #170, .F. ) ;
#231 = FACE_OUTER_BOUND ( 'NONE', #104, .T. ) ;
#232 = CALENDAR_DATE ( 2020, 23, 12 ) ;
#233 = DIRECTION ( 'NONE',  ( 0.000000000000000000, 0.000000000000000000, 1.000000000000000000 ) ) ;
#234 = APPROVAL_ROLE ( '' ) ;
#235 = ORIENTED_EDGE ( 'NONE', *, *, #115, .F. ) ;
#236 = AXIS2_PLACEMENT_3D ( 'NONE', #87, #291, #191 ) ;
#237 = DIRECTION ( 'NONE',  ( 1.000000000000000000, 0.000000000000000000, 0.000000000000000000 ) ) ;
#238 = DIRECTION ( 'NONE',  ( 1.000000000000000000, 0.000000000000000000, 0.000000000000000000 ) ) ;
#239 = DIRECTION ( 'NONE',  ( 0.000000000000000000, 0.000000000000000000, 1.000000000000000000 ) ) ;
#240 = CARTESIAN_POINT ( 'NONE',  ( -3.000000000000000000, 1.555301434917138433E-15, -12.69999999999999929 ) ) ;
#241 = CIRCLE ( 'NONE', #192, 12.69999999999999929 ) ;
#242 = DIRECTION ( 'NONE',  ( 0.000000000000000000, 0.000000000000000000, 1.000000000000000000 ) ) ;
#243 = CARTESIAN_POINT ( 'NONE',  ( 3.000000000000000000, 12.69999999999999929, 0.000000000000000000 ) ) ;
#244 = DIRECTION ( 'NONE',  ( -1.000000000000000000, -0.000000000000000000, -0.000000000000000000 ) ) ;
#245 = VECTOR ( 'NONE', #90, 1000.000000000000000 ) ;
#246 = CARTESIAN_POINT ( 'NONE',  ( 1.250000000000000444, 0.000000000000000000, 0.000000000000000000 ) ) ;
#247 = CC_DESIGN_DATE_AND_TIME_ASSIGNMENT ( #49, #103, ( #30 ) ) ;
#248 = VECTOR ( 'NONE', #138, 1000.000000000000000 ) ;
#249 = CALENDAR_DATE ( 2020, 23, 12 ) ;
#250 = ORIENTED_EDGE ( 'NONE', *, *, #219, .F. ) ;
#251 = CC_DESIGN_DATE_AND_TIME_ASSIGNMENT ( #132, #124, ( #286 ) ) ;
#252 = ADVANCED_FACE ( 'NONE', ( #143, #41 ), #121, .F. ) ;
#253 = PERSON_AND_ORGANIZATION_ROLE ( 'creator' ) ;
#254 = ORIENTED_EDGE ( 'NONE', *, *, #320, .F. ) ;
#255 = AXIS2_PLACEMENT_3D ( 'NONE', #277, #129, #78 ) ;
#256 = APPROVAL_ROLE ( '' ) ;
#257 = EDGE_LOOP ( 'NONE', ( #284, #235, #134, #183 ) ) ;
#258 = CC_DESIGN_PERSON_AND_ORGANIZATION_ASSIGNMENT ( #150, #253, ( #217 ) ) ;
#259 = APPROVAL_DATE_TIME ( #47, #215 ) ;
#260 = PRODUCT_DEFINITION_SHAPE ( 'NONE', 'NONE',  #30 ) ;
#261 = EDGE_LOOP ( 'NONE', ( #205, #184 ) ) ;
#262 = ORIENTED_EDGE ( 'NONE', *, *, #222, .T. ) ;
#263 = ORIENTED_EDGE ( 'NONE', *, *, #37, .F. ) ;
#264 = CIRCLE ( 'NONE', #9, 5.000000000000001776 ) ;
#265 = CARTESIAN_POINT ( 'NONE',  ( 3.000000000000000000, 0.000000000000000000, 0.000000000000000000 ) ) ;
#266 = CARTESIAN_POINT ( 'NONE',  ( -1.614212418857619014, 0.000000000000000000, 12.69999999999999929 ) ) ;
#267 = CARTESIAN_POINT ( 'NONE',  ( -1.250000000000000222, 0.000000000000000000, 5.000000000000000888 ) ) ;
#268 = CIRCLE ( 'NONE', #236, 12.69999999999999929 ) ;
#269 = DIRECTION ( 'NONE',  ( 0.000000000000000000, 0.000000000000000000, 1.000000000000000000 ) ) ;
#270 = CARTESIAN_POINT ( 'NONE',  ( 3.000000000000000000, 6.123233995736768255E-16, -5.000000000000001776 ) ) ;
#271 = PERSON_AND_ORGANIZATION_ROLE ( 'design_owner' ) ;
#272 = CC_DESIGN_PERSON_AND_ORGANIZATION_ASSIGNMENT ( #89, #271, ( #299 ) ) ;
#273 = CARTESIAN_POINT ( 'NONE',  ( -1.614212418857619014, 1.555301434917138433E-15, -12.69999999999999929 ) ) ;
#274 = DIRECTION ( 'NONE',  ( -1.000000000000000000, 0.000000000000000000, -0.000000000000000000 ) ) ;
#275 = DIRECTION ( 'NONE',  ( 0.000000000000000000, 0.000000000000000000, -1.000000000000000000 ) ) ;
#276 = CC_DESIGN_APPROVAL ( #64, ( #217 ) ) ;
#277 = CARTESIAN_POINT ( 'NONE',  ( -1.614212418857619014, 0.000000000000000000, 0.000000000000000000 ) ) ;
#278 = APPROVAL_STATUS ( 'not_yet_approved' ) ;
#279 = ORIENTED_EDGE ( 'NONE', *, *, #115, .T. ) ;
#280 = ORIENTED_EDGE ( 'NONE', *, *, #37, .T. ) ;
#281 = AXIS2_PLACEMENT_3D ( 'NONE', #119, #60, #319 ) ;
#282 = CARTESIAN_POINT ( 'NONE',  ( -1.614212418857619014, 6.123233995736767268E-16, -5.000000000000000888 ) ) ;
#283 = EDGE_CURVE ( 'NONE', #327, #160, #11, .T. ) ;
#284 = ORIENTED_EDGE ( 'NONE', *, *, #44, .F. ) ;
#285 = FACE_BOUND ( 'NONE', #112, .T. ) ;
#286 = SECURITY_CLASSIFICATION ( '', '', #155 ) ;
#287 = DIRECTION ( 'NONE',  ( -0.000000000000000000, 0.000000000000000000, 1.000000000000000000 ) ) ;
#288 = ORIENTED_EDGE ( 'NONE', *, *, #179, .T. ) ;
#289 = ADVANCED_FACE ( 'NONE', ( #294 ), #96, .F. ) ;
#290 = DIRECTION ( 'NONE',  ( 1.000000000000000000, 0.000000000000000000, 0.000000000000000000 ) ) ;
#291 = DIRECTION ( 'NONE',  ( -1.000000000000000000, -0.000000000000000000, -0.000000000000000000 ) ) ;
#292 = DIRECTION ( 'NONE',  ( -1.000000000000000000, -0.000000000000000000, -0.000000000000000000 ) ) ;
#293 = APPROVAL_PERSON_ORGANIZATION ( #210, #195, #234 ) ;
#294 = FACE_OUTER_BOUND ( 'NONE', #126, .T. ) ;
#295 = LOCAL_TIME ( 9, 21, 40.00000000000000000, #98 ) ;
#296 =( NAMED_UNIT ( * ) SI_UNIT ( $, .STERADIAN. ) SOLID_ANGLE_UNIT ( ) );
#297 = ORIENTED_EDGE ( 'NONE', *, *, #222, .F. ) ;
#298 = APPROVAL_STATUS ( 'not_yet_approved' ) ;
#299 = PRODUCT ( 'Q-QZWP-R4-10-266-M', 'Q-QZWP-R4-10-266-M', '', ( #174 ) ) ;
#300 = ORIENTED_EDGE ( 'NONE', *, *, #169, .F. ) ;
#301 = CIRCLE ( 'NONE', #116, 5.000000000000001776 ) ;
#302 = CARTESIAN_POINT ( 'NONE',  ( 1.250000000000000444, 0.000000000000000000, 5.000000000000000000 ) ) ;
#303 = CC_DESIGN_PERSON_AND_ORGANIZATION_ASSIGNMENT ( #125, #101, ( #30 ) ) ;
#304 = VERTEX_POINT ( 'NONE', #224 ) ;
#305 = PERSON_AND_ORGANIZATION ( #149, #147 ) ;
#306 = ORIENTED_EDGE ( 'NONE', *, *, #74, .F. ) ;
#307 = DESIGN_CONTEXT ( 'detailed design', #311, 'design' ) ;
#308 = LOCAL_TIME ( 9, 21, 40.00000000000000000, #105 ) ;
#309 = CALENDAR_DATE ( 2020, 23, 12 ) ;
#310 = DIRECTION ( 'NONE',  ( -1.000000000000000000, -0.000000000000000000, -0.000000000000000000 ) ) ;
#311 = APPLICATION_CONTEXT ( 'configuration controlled 3d designs of mechanical parts and assemblies' ) ;
#312 = CARTESIAN_POINT ( 'NONE',  ( -3.000000000000000000, 6.123233995736766282E-16, -5.000000000000000000 ) ) ;
#313 = ORIENTED_EDGE ( 'NONE', *, *, #329, .F. ) ;
#314 = CYLINDRICAL_SURFACE ( 'NONE', #162, 12.69999999999999929 ) ;
#315 = EDGE_CURVE ( 'NONE', #304, #133, #54, .T. ) ;
#316 = EDGE_LOOP ( 'NONE', ( #102, #297 ) ) ;
#317 = CIRCLE ( 'NONE', #38, 5.000000000000000000 ) ;
#318 = DIRECTION ( 'NONE',  ( 0.000000000000000000, 0.000000000000000000, 1.000000000000000000 ) ) ;
#319 = DIRECTION ( 'NONE',  ( 0.000000000000000000, 0.000000000000000000, 1.000000000000000000 ) ) ;
#320 = EDGE_CURVE ( 'NONE', #133, #68, #324, .T. ) ;
#321 = DIRECTION ( 'NONE',  ( -1.000000000000000000, -0.000000000000000000, -0.000000000000000000 ) ) ;
#322 = AXIS2_PLACEMENT_3D ( 'NONE', #120, #146, #325 ) ;
#323 = DIRECTION ( 'NONE',  ( 0.000000000000000000, 0.000000000000000000, 1.000000000000000000 ) ) ;
#324 = LINE ( 'NONE', #273, #245 ) ;
#325 = DIRECTION ( 'NONE',  ( 0.000000000000000000, 0.000000000000000000, 1.000000000000000000 ) ) ;
#326 = DIRECTION ( 'NONE',  ( -0.000000000000000000, 0.000000000000000000, 1.000000000000000000 ) ) ;
#327 = VERTEX_POINT ( 'NONE', #198 ) ;
#328 = AXIS2_PLACEMENT_3D ( 'NONE', #100, #237, #97 ) ;
#329 = EDGE_CURVE ( 'NONE', #214, #68, #135, .T. ) ;
#330 = PERSON_AND_ORGANIZATION ( #149, #147 ) ;
#331 = CARTESIAN_POINT ( 'NONE',  ( -1.614212418857619014, 0.000000000000000000, 0.000000000000000000 ) ) ;
#332 = PERSON_AND_ORGANIZATION ( #149, #147 ) ;
#333 = ORIENTED_EDGE ( 'NONE', *, *, #315, .T. ) ;
#334 = APPROVAL_STATUS ( 'not_yet_approved' ) ;
#335 = EDGE_LOOP ( 'NONE', ( #288, #227, #180, #83 ) ) ;
ENDSEC;
END-ISO-10303-21;
